Song name
# A B C D E F G H I J K L M N O P Q R S T U V W X Y Z

Washya - City Jammin tab

------------------------------------------------------------------------------
         City Jammin - Washya
------------------------------------------------------------------------------
Tuning: Standard (EBGDAE)
Intro/Verses (cool rook and roll song)
E|-------------------------------------------------------------------|
B|----------------------------------------------------------------4*-|
G|------0-3-0-3h5-0-3-555-3-0-0------0-3-0-3h5-0-3-555-3-0-0--0-3----|
D|-xx\\-0-3-0-3h5-0-3-555-3-0-0-xx\\-0-3-0-3h5-0-3-555-3-0-0--0-3----|
A|-xx\\---------------333-------xx\\---------------333---------------|
E|-------------------------------------------------------------------|

Chorus
E|-------222---2--------------------------------------------------------------|
B|-1-----333-----3----------------1-------------------------------------------|
G|-0-1---222-2------5-5-7-7-------------2-3-----------------------------------|
D|-2-2--------------5-5-7-7-----2-----2-2-3-----------------------------------|
A|-3-2--------------3-3-5-5---2-----3---0-1-55555555/88888888-4---4---4---4---|
E|-----0--------------------0---------------33333333/66666666---6---6---4---4-|
PM                                          ******** ******** * * * * * * * * 
Tap to rate this tab
 
# A B C D E F G H I J K L M N O P Q R S T U V W X Y Z