Song name
# A B C D E F G H I J K L M N O P Q R S T U V W X Y Z

Washya - Lions Den tab

------------------------------------------------------------------------------
                 Lion's Den - Washya
------------------------------------------------------------------------------
Tuning: Drop D (EBGDAD)
Intro/Verses
E|---------------------------------------------------------------------10-|
B|---------------------------------------------------------------------12-|
G|---------------------------------------------------------10----------12-|
D|-------4--------2-------6-------4-------8-------6---10---------12----10-|
A|---2--------2-------4-------4-------6-------6-----8----8----10----10-10-|
D|-2---2----2---2---4---4---4---4---6---6---6---6----------------------10-|
PM * * * *  * * * * * * * * * * * * * * * * * * * * * ** * ** ** ** **  

Main Riff/Chorus
E|------------------------------------------------------------------|
B|------------------------------------------------------------------|
G|-4444-7/8-7----7----7----7----7/8-6666-4444-7/8-8---8---8---777/8-|
D|-2222-5/6-5----5----5----5----5/6-4444-2222-5/6-6---6---6---555/6-|
A|-2222-5/6-5----5----5----5----5/6-4444-2222-5/6-6---6---6---555/6-|
D|-2222-5/6-5-00-5-00-5-00-5-00-5/6-4444-2222-5/6-6-0-6-0-6-0-555/6-|
PM            **   **   **   **                     *   *   * 

Lead
E|-------------------------------------14h15p14\12h14p12p11h12p11----|
B|------------------12\11-9\7-4/5---------------------------------13-|
G|----9\8----7--------------------5----------------------------------|
D|-------------9-----------------------------------------------------|
A|-------------------------------------------------------------------|
D|-00-----00-----00-----------------00-------------------------------|
Tap to rate this tab
 
# A B C D E F G H I J K L M N O P Q R S T U V W X Y Z