Song name
# A B C D E F G H I J K L M N O P Q R S T U V W X Y Z

Washya - Secret Stash tab

-------------------------------------------------------------------------------
       Secret Stash - Washya
-------------------------------------------------------------------------------
Tuning: Drop D (DADGBE)
Intro
E|---------------------------------------------|
B|---------------------------------------------|
G|---------------------------------------------|
D|-0h22-2-0h22-2-0h22-2-000-0h22-2-0h2p0h2-5-2-|
A|-0h22-2-0h22-2-0h22-2-000-0h22-2-0h2p0h2-3-2-|
D|---------------------------------------------|

Intro 2 (heavier)
E|---------------------------------------------|
B|---------------------------------------------|
G|---------------------------------------------|
D|---------------------------------------------|
A|-0-22-2-0-22-2-0-22-2-000-0-22-2-0-2-0-2/5\2-|
D|-0-22-2-0-22-2-0-22-2-000-0-22-2-0-2-0-2/5\2-|

Verses
E|-----------------------------------------------|
B|-----------------------------------------------|
G|-----------------------------------------------|
D|-----------------------------------------------|
A|-22-22--2222-22-22--2222-22-22-2h3p2h3/6-8\6\5-|
D|-22-22--2222-22-22--2222-22-22-2h3p2h3/6-8\6\5-|
PM ** **  **** ** **  **** ** ** *******     

Chorus
E|--------------------------------------------------------------------------|
B|--------------------------------------------------------------------------|
G|------------------------------------------------2-----2-------------------|
D|---------------------5-----5----------------------3-----3-----------------|
A|-555555-333/888888-5---5-----5---55555-4-4444-2-----2-----2-3-333-2-222-0-|
D|-555555-333/888888-5-----5-----5-55555-4-4444-2-------------3-333-2-222-0-|
Tap to rate this tab
 
# A B C D E F G H I J K L M N O P Q R S T U V W X Y Z