Song name
# A B C D E F G H I J K L M N O P Q R S T U V W X Y Z

Washya - Kill Me tab

-----------------------------------------------------------------------------
          Kill Me - Washya
-----------------------------------------------------------------------------
TUNING: DROP C (DAFCGC)
Intro
D|-------------------------|
A|-------------------------|
F|-------------------------|
C|-------------------4\3/4-|
G|-------------------2\1/2-|
C|-3p2p0-3p2p0-3p2p0-------|
PM ***** ***** ***** 

Intro 2/Verses
D|-------------------------|-----------------------|
A|-------------------------|----------x-x------<5>-|
F|-------------------------|----------x-x------<5>-|
C|-------------------4\3/4-|-----x--x-x-x-xxxx-<5>-|
G|-3p2p0-3p2p0-3p2p0-2\1/2-|---x--x-------xxxx-----|
C|-3p2p0-3p2p0-3p2p0-------|-x--x---------xxxx-----|
                        x10

Chorus
D|--------------------------------------------------------------|
A|--------------------------------------------------------------|
F|--------------------------------------------------------------|
C|-xx-2-xx-5-xx-8-4h5-xx-2-x-5-xx-11111/2/88888p777-xx-1-xx-1/2-|
G|-xx-2-xx-5-xx-8-4h5-xx-2-x-5-xx-11111/2/88888p777-xx-1-xx-1/2-|
C|-xx-2-xx-5-xx-8-4h5-xx-2-x-5-xx-11111/2/88888p777-xx-1-xx-1/2-|
Tap to rate this tab
# A B C D E F G H I J K L M N O P Q R S T U V W X Y Z