Song name
# A B C D E F G H I J K L M N O P Q R S T U V W X Y Z

Washya - Im In Control tab

-------------------------------------------------------------------------------
              I'm In Control - Washya
-------------------------------------------------------------------------------
Tuning: Drop D (EBGDAD)
Intro
E|---------------------------------------|
B|---------------------------------------|
G|---------------------------------------|
D|-------------------------------------5-|
A|-------------------------0-3-0-5-3-0-3-|
D|-0-0-0-0-0-0-0-0-0-0-0-0-0-3-0-5-3-0---|
PM * * * * * * * * * * * * 

Verses
E|------------------------------------|
B|------------------------------------|
G|------------------------------------|
D|----------------------------------5-|
A|-333h5--000h3--333h5--0-3-0-5-3-0-3-|
D|-333h5--000h3--333h5--0-3-0-5-3-0---|
PM ***    ***    ***   

Chorus
E|-------------------------------------------------------------|
B|-------------------------------------------------------------|
G|-------------------------------------------------------------|
D|--------55-----------------33---------------7-77-7-----------|
A|-0-00-0-33-3h55-5-0-00-0-0-11-1h33-3-0-00-0-5-55-5-000-3h555-|
D|-0-00-0----3h55-5-0-00-0-0----1h33-3-0-00-0--------000-3h555-|
PM * **             * ** *             * **          *** 


Intro/Outro
E|---------------------------------------|
B|---------------------------------------|
G|---------------------------------------|
D|-------------------------------------5-|
A|-------------------------0-3-0-5-3-0-3-|
D|-0-0-0-0-0-0-0-0-0-0-0-0-0-3-0-5-3-0---|
PM * * * * * * * * * * * * 
Tap to rate this tab
# A B C D E F G H I J K L M N O P Q R S T U V W X Y Z