Song name
# A B C D E F G H I J K L M N O P Q R S T U V W X Y Z

Washya - Never Happy Unless Youre Bleeding Gold tab

-----------------------------------------------------------------------------
 Never Happy Unless You're Bleeding Gold - Washya
-----------------------------------------------------------------------------
Tuning: Drop D (DADGBE)
Intro
E|-----------------------------------------------------------|
B|-----------------------------------------------------------|
G|-----------------------------------------------------------|
D|-----3p2------------3p2------------3p2---------------------|
A|-3h5------------3h5------------3h5-----------3333h5555-5-0-|
D|---------3h5p3----------3h5p3----------3h5p3-3333h5555-5-0-|
PM                                             ********* 

Verses
E|-0-0-0-0------0-|
B|-0-0-0-0------0-|
G|-0-0-0-2------2-|
D|-3-5-1-2------2-|
A|-3-5-1-0-xxxx-0-|
D|-3-5-1-0-xxxx-0-|

Chorus
E|-------------------------------------------------------------------|
B|-------------------------------------------------------------------|
G|-------------------------------------------------------------------|
D|-------3p2---------3p2---------6p5p3----3h5h6p5p3------------------|
A|---3h5-----5---3h5-----3---3h5-------55-----------3333/5-555-5-0-0-|
D|-0---------5-0---------3-0-----------55-----------3333/5-555-5-0-0-|

Lead                                    (next Part)
E|--------------------------------------|-------------------|
B|--------------------------------------|-------------------|
G|--------3p2--------3p2----------------|-------------------|
D|------------55---------33-------------|-------------------|
A|----3h5--------3h5--------3h5p3-------|-55555/88888\33333-|
D|-00-----------------------------6p5p3-|-55555/88888\33333-|
PM **                                x2  x3


Intro
E|-----------------------------------------------------------|
B|-----------------------------------------------------------|
G|-----------------------------------------------------------|
D|-----3p2------------3p2------------3p2---------------------|
A|-3h5------------3h5------------3h5-----------3333h5555-5-0-|
D|---------3h5p3----------3h5p3----------3h5p3-3333h5555-5-0-|
PM                                             ********* 
Tap to rate this tab
 
# A B C D E F G H I J K L M N O P Q R S T U V W X Y Z