Song name
# A B C D E F G H I J K L M N O P Q R S T U V W X Y Z

Washya - Mind Control tab

-----------------------------------------------------------------------------
              Mind Control - Washya
-----------------------------------------------------------------------------
Tuning: Standard (EBGDAE)
Intro
E|-12----14----12----14----10----12----10----12-----|
B|----12----12----12----12----10----10----10----10\-|
G|--------------------------------------------------|
D|--------------------------------------------------|
A|--------------------------------------------------|
E|--------------------------------------------------|x3

Verses
E|-0---------------------0---------------------0----------------------------|
B|-0---------------------0---------------------0----------------------------|
G|-7-7p5p0---------------5-5p3p0---------------3-3p0-1p0---1p0--------------|
D|-7-------7p0-5p0-------5-------5p0-3p0-------3---------3-----3p1p0--------|
A|-5---------------7p5p0-3---------------5p3p0-1---------------------3p0-1p0|
E|-0---------------------0---------------------0----------------------------|
PM   ***** *** *** *****   ***** *** *** *****   *** *** * *** ***** *** *** 

E|-0-|
B|-0-|
G|-0-|
D|-2-|
A|-2-|
E|-0-|

Chorus
E|---------------------------------------|
B|---------------------------------------|
G|---------------------------------------|
D|-7-7/8-5-5-5-5/6-----------------------|
A|-5-5/6-3-3-3-3/4-6-6-6/7\6-4-4-4/5\4-2-|
E|-----------------4-4-4/5\4-2-2-2/3\2-0-|
Tap to rate this tab
 
# A B C D E F G H I J K L M N O P Q R S T U V W X Y Z