Song name
# A B C D E F G H I J K L M N O P Q R S T U V W X Y Z

Washya - Live Bait tab

-------------------------------------------------------------------------------
                Live Bait - Washya
-------------------------------------------------------------------------------
Tuning: Drop D (DADGBE)
Intro x 4 Lead  (slowly)
E|-----------------------------------------------------------|
B|-9--------9--------7---------9--------9--------7-----------|
G|---7-9-10---7-9-10---10-9------7-9-10---7-9-10---10-9------|
D|--------------------------7~--------------------------7\5~-|
A|-----------------------------------------------------------|
D|-----------------------------------------------------------|

Intro rhythm
E|-------------------------------------|
B|-------------------------------------|
G|-------------------------------------|
D|-------------------------------------|
A|-88888888\33333333/55555555-00000000-|
D|-88888888\33333333/55555555-00000000-|
PM ******** ******** ******** ******** 

Verses (both Guitars)
E|---------------------------------------------------------|
B|---------------------------------------------------------|
G|---------------------------------------------------------|
D|-0-77777777-44444444-55555555-------------------88888888-|
A|-0-55555555-22222222-33333333-33333333-11111111-66666666-|
D|-0----------------------------33333333-11111111----------|
PM   ******** ******** ******** ******** ******** *****  

Lead 
E|-----------------------------------------------------------|
B|-9--------9--------7---------9--------9--------7-----------|
G|---7-9-10---7-9-10---10-9------7-9-10---7-9-10---10-9------|
D|--------------------------7~--------------------------7\5~-|
A|-----------------------------------------------------------|
D|-----------------------------------------------------------|

Chorus
E|----------------------------------------------------------------|
B|----------------------------------------------------------------|
G|----------------------------------------------------------------|
D|-99999999-77777777----------55555555-33333333-------------------|
A|-77777777-55555555-55555555-33333333-11111111-xx-xx-22-xx-xx-22-|
D|-------------------55555555-------------------xx-xx-22-xx-xx-22-|
Tap to rate this tab
# A B C D E F G H I J K L M N O P Q R S T U V W X Y Z