Song name
# A B C D E F G H I J K L M N O P Q R S T U V W X Y Z

Washya - Volcanic Rock tab

-----------------------------------------------------------------------------
            Volcanic Rock - Washya
-----------------------------------------------------------------------------
Tuning: Drop C (DAFCGC)
Intro
D|-----------------------------------------------------------------|
A|-----------------------------------------------------------------|
F|-7---------------------------------------------------------------|
C|-7-5-7-----------------------------------------------------------|
G|-5-5-7-----------------------------------------------3-----------|
C|---5-7-333333h6p33333333h5p3333333h6p3333333h5-3h5h6---6p3333333-|
PM       ******   ********   *******   *******             ******* 

Verses
D|---------------------------------------------------------------------|
A|---------------------------------------------------------------------|
F|---------------------------------------------------------------------|
C|---------------------------------------------------------------------|
G|-------5-------6-------3-------5-------6-------8-------3-------2h3h5-|
C|-33333---33333---33333---33333---33333---33333---33333---3h5h6-------|
PM *****   *****   *****   *****   *****   *****   *****  

Chorus
D|---------------------------------------------------------------------|
A|---------------------------------------------------------------------|
F|------7\------8\------5\---------------------------------7\6-4-------|
C|------7\------8\------5\---------------------------------7\6-4-------|
G|-0-00-5\-0-00-6\-0-00-3\-0-00-6-5-3-0-3-5-6-5-3-1-0-0-00-5\4-2-0-3-0-|
C|-0-00----0-00----0-00----0-00-6-5-3-0-3-5-6-5-3-1-0-0-00-------0-3-0-|
PM * **    * **    * **    * **                       * **   

D|-----------|
A|-----------|
F|-----------|
C|-----------|
G|-3-5-3-2-0-|
C|-3-5-3-2-0-|

Verses
D|---------------------------------------------------------------------|
A|---------------------------------------------------------------------|
F|---------------------------------------------------------------------|
C|---------------------------------------------------------------------|
G|-------5-------6-------3-------5-------6-------8-------3-------2h3h5-|
C|-33333---33333---33333---33333---33333---33333---33333---3h5h6-------|
PM *****   *****   *****   *****   *****   *****   *****  

Intro
D|-----------------------------------------------------------------|
A|-----------------------------------------------------------------|
F|-7---------------------------------------------------------------|
C|-7-5-7-----------------------------------------------------------|
G|-5-5-7-----------------------------------------------3-----------|
C|---5-7-333333h6p33333333h5p3333333h6p3333333h5-3h5h6---6p3333333-|
PM       ******   ********   *******   *******             ******* 

Chorus
D|---------------------------------------------------------------------|
A|---------------------------------------------------------------------|
F|------7\------8\------5\---------------------------------7\6-4-------|
C|------7\------8\------5\---------------------------------7\6-4-------|
G|-0-00-5\-0-00-6\-0-00-3\-0-00-6-5-3-0-3-5-6-5-3-1-0-0-00-5\4-2-0-3-0-|
C|-0-00----0-00----0-00----0-00-6-5-3-0-3-5-6-5-3-1-0-0-00-------0-3-0-|
PM * **    * **    * **    * **                       * **   

D|-----------|
A|-----------|
F|-----------|
C|-----------|
G|-3-5-3-2-0-|
C|-3-5-3-2-0-|
Tap to rate this tab
 
# A B C D E F G H I J K L M N O P Q R S T U V W X Y Z