Song name
# A B C D E F G H I J K L M N O P Q R S T U V W X Y Z

Washya - Police Sirens tab

-----------------------------------------------------------------------------
                  Police Sirens - Washya
-----------------------------------------------------------------------------
Tuning: Standard (EBGDAE)
Intro
E|-----------------------------------------------------------|
B|-----------------------------------------------------------|
G|-----------------------------------------------------------|
D|-----------------------------------3-----------3-----------|
A|-1-0---------1-0---------0-3-0-----1-0-3-0-----1-----------|
E|-----1-3-1-0-----1-3-1-0-------1-3---------1-3---0-1-3-1-0-|
PM * * * * * * * * * * * * * * * * *   * * * * *   * * * * * 

Verses
E|-7\6-66-6-6/9~-|-7\6-66-6-/10\9~-|
B|-7\6-66-6-6/9~-|-7\6-66-6-/10\9~-|
G|---------------|-----------------|
D|---------------|-----------------|
A|---------------|-----------------|
E|---------------|-----------------|
               x3                 x1 

Chorus
E|--------------------------------------------------------------------------|
B|--------------------------------------------------------------------------|
G|--------------------------------------------------------------------------|
D|--------------------------------------------------------------------------|
A|-1-0--------1-3-----1-0--------1-3-----3---1-2-3h5-5-3-1-0-1-------0-1---2|
E|-----3-11-3-----3/1-----3-11-3-----3-1-1-3---0-----3-1-------3-1-3-----3-0|
PM * * * ** * * * *** * * * ** * * * * *   * *   ***     * * * * * * * * * 

Verses
E|-7\6-66-6-6/9~-|-7\6-66-6-/10\9~-|
B|-7\6-66-6-6/9~-|-7\6-66-6-/10\9~-|
G|---------------|-----------------|
D|---------------|-----------------|
A|---------------|-----------------|
E|---------------|-----------------|
               x3                 x1 
Tap to rate this tab
 
# A B C D E F G H I J K L M N O P Q R S T U V W X Y Z