Song name
# A B C D E F G H I J K L M N O P Q R S T U V W X Y Z

Washya - High Emotions tab

-------------------------------------------------------------------------------
         High Emotions - Washya
-------------------------------------------------------------------------------
Tuning: Drop D (EBGDAD)
Intro
E|--------------------------------------------------|
B|--------------------------------------------------|
G|--------------------------------------------------|
D|------------------7-77-77-77777----------------5~-|
A|-4-4-444--2-2-222-5-55-55-55555-4-4-444-22-222-3~-|
D|-4-4-444--2-2-222---------------4-4-444-22-222----|

Verses
E|------------------|
B|------------------|
G|-5/8~-------------|
D|------------------|
A|------------------|
D|------000-000-000-|
PM      *** *** *** 

Chorus
E|-------------------------------------------------------|
B|-------------------------------------------------------|
G|-------------------------------------------------------|
D|-------------------------------7----7----7-------------|
A|-44444444-66666666-22222222----5----5----5-----3p2p0---|
D|-44444444-66666666-22222222-00---00---00---0h2-------2-|
PM                            **   **   **   *** ***** *

Quiet 
E|---------0---------------------------0---------------|
B|-----------0---------3-----------3-----3-------------|
G|-----------------------0-----------0-----2-----7-----|
D|-----2-----------4-----------6---------------7---7---|
A|---2-----------4-----------6---------------5-------5-|
D|-2-----2-----4-----4-----6-----6---------------------|
PM * * * *     * * * *     * * * *           * * * * * 
Tap to rate this tab
# A B C D E F G H I J K L M N O P Q R S T U V W X Y Z