Song name
# A B C D E F G H I J K L M N O P Q R S T U V W X Y Z

Washya - Animals Curse tab

-------------------------------------------------------------------------------
           Animal's Curse - Washya
-------------------------------------------------------------------------------
Tuning: Standard (EBGDAE)
Intro
E|-------------------------------------------------|
B|-------------------------------------------------|
G|----------10\9--7\6------------------------------|
D|-------------------------------------------------|
A|----------8\7---5\4----------------------------8-|
E|xx//-0000-----------0060050030050060050060030506-|
PM     ****           *************************** 

Verses
E|-----------------------------------------------------|
B|-----------------------------------------------------|
G|-----------------------------------------------------|
D|---------8\7~--------------5/7------------------3----|
A|--------------5\4~---------3/5-10\9---------555-1-33-|
E|-0-0-0-0-----------0-0-0-0-----8-\7-0-0-0-0-333---11-|
PM * * * *           * * * *          * * * * 

Chorus
E|------------------------------------------------------------|
B|------------------------------------------------------------|
G|------------------------------------------------------------|
D|-8\7-5/7----------3-2--------------7-------5-555555---------|
A|-6\5-3/5-7-777777-1-0-2-3-2-222222-5-7-5-7-3-333333-3-5-3-2-|
E|---------5-555555-----0-1-0-000000---5-3-5----------1-3-1-0-|
PM           ******           ******           ****** * * * 
Tap to rate this tab
 
# A B C D E F G H I J K L M N O P Q R S T U V W X Y Z