Song name
# A B C D E F G H I J K L M N O P Q R S T U V W X Y Z

Washya - Pedestrians On Route tab

-------------------------------------------------------------------------------
 Pedestrians On Route - Washya
-------------------------------------------------------------------------------
Tuning: Drop D (DADGBE)
Intro/Chorus
E|---------------------------------------------------------|
B|---------------------------------------------------------|
G|---------------------------------------------------------|
D|---------------------------------------------------333/5-|
A|-0-2-3-0-2-3-0-3-2-0-3-2-0-2-3-0-2-3-0-3-2-0-3-2-0-111/3-|
D|-0-2-3-0-2-3-0-3-2-0-3-2-0-2-3-0-2-3-0-3-2-0-3-2-0-------|

Verses
E|---------------------------------------------|
B|---------------------------------------------|
G|---------------------------------------------|
D|---------------------------------------------|
A|------333-2222-555-6-66--5555-2222-333-6-666-|
D|-//xx-333-2222-555-6-66--5555-2222-333-6-666-|

Interlude (Heavy Palm mute)
E|------------------------------------------------|
B|------------------------------------------------|
G|------------------------------------------------|
D|------------------------------------------------|
A|-0-2-3-0-2-3-0-3-2-0-3-2-3-3-2-0-2-3-0-2-3-0000-|
D|-0-2-3-0-2-3-0-3-2-0-3-2-3-3-2-0-2-3-0-2-3-0000-|
PM * * * * * * * * * * * * * * * * * * * * * **** 

Verses
E|---------------------------------------------|
B|---------------------------------------------|
G|---------------------------------------------|
D|---------------------------------------------|
A|------333-2222-555-6-66--5555-2222-333-6-666-|
D|-//xx-333-2222-555-6-66--5555-2222-333-6-666-|
Tap to rate this tab
# A B C D E F G H I J K L M N O P Q R S T U V W X Y Z