Song name
# A B C D E F G H I J K L M N O P Q R S T U V W X Y Z

Washya - Pathway Too Freedom tab

-------------------------------------------------------------------------------
Pathway Too Freedom - Washya
-------------------------------------------------------------------------------
Tuning: Standard (EBGDAE)
Intro
E|18p16p15h16p15p13h15p13p12h13p12h13p12p10h12p10p9h10p9p7h9p7p6h7p6p4h6p4-|
B|-------------------------------------------------------------------------|
G|-------------------------------------------------------------------------|
D|-------------------------------------------------------------------------|
A|-------------------------------------------------------------------------|
E|-------------------------------------------------------------------------|

Verses
E|---------------------------------|---------------|
B|---------------------------------|---------------|
G|---------------------------------|---------------|
D|-4-44-2-4-4--4-44-2-4-4--444-2---|-------8-7-5-7-|
A|-2-22-0-2-2--2-22-0-2-2--222-0-4-|-888\7-6-5-3-5-|
E|-------------------------------2-|-666\5---------|
                                    pt 2
Chorus
E|--------------------------------------|
B|--------------------------------------|
G|--------------------------------------|
D|-----9~------7~------5~-555-4---------|
A|-4-2-7~--4-2-5~--4-2-3~-333-2-8-7-5-7-|
E|-2-0-----2-0-----2-0----------6-5-3-5-|
Tap to rate this tab
# A B C D E F G H I J K L M N O P Q R S T U V W X Y Z