Song name
# A B C D E F G H I J K L M N O P Q R S T U V W X Y Z

Washya - Basic tab

-------------------------------------------------------------------------------
               Basic - Washya
-------------------------------------------------------------------------------
Tuning: Drop C (DAFCGC)
intro
D|------------------------------------------------------------------|
A|------------------------------------------------------------------|
F|------------------------------------------------------------------|
C|------5/7-7/8-5/7-------------8\7-5/7-3/5-------------------------|
G|------3/5-5/6-3/5-------------6\5-3/5-1/3-------------3/5-5/6-0-3-|
C|-//xx-------------0-0-0-0-0-0-------------0-0-0-0-0-0-3/5-5/6-0-3-|
PM                  * * * * * *             * * * * * * 

Verses
D|-------------------------------------------------------------|
A|-------------------------------------------------------------|
F|-6-5-3---3-2-----8-7-5---6-5---------------------------------|
C|-------5-----4-5-------7-----6-7-6-4-------------------------|
G|-------------------------------------6-4-3-------------------|
C|-------------------------------------------5-3-2-0-0-0-00-00-|
PM                                                 * * * ** ** 

Chorus
D|-----------------------------------------------------------------|
A|-----------------------------------------------------------------|
F|-----------------------------------------------------------------|
C|-9999-99-7777-77---------------5-5555-55-3333-33---------------3-|
G|-7777-77-5555-55-333-555-3h5h6---3333-33-1111-11-111-333-1h3h4---|
C|-----------------333-555-------------------------111-333---------|
PM                         *****                           *****
Tap to rate this tab
# A B C D E F G H I J K L M N O P Q R S T U V W X Y Z