Song name
# A B C D E F G H I J K L M N O P Q R S T U V W X Y Z

Washya - Lethargic tab

-------------------------------------------------------------------------------
             Lethargic - Washya
-------------------------------------------------------------------------------
Tuning: Drop D (DADGBE)
Intro
E|-----------------------------------------------|
B|-----------------------------------------------|
G|-----------------------------------------------|
D|-----------------------------------------------|
A|-0-2-0-22-3-2-0-2222222-0-2-0-22-5-3-2-0000000-|
D|-0-2-0-22-3-2-0-2222222-0-2-0-22-5-3-2-0000000-|
PM                *******                ******* 

Verses
E|------------------------------------------------------------------------|
B|------------------------------------------------------------------------|
G|---7---55-7-5-4------7---55-7-5-4-7-77---9---77-9-7-6------9---77-9-7-6-|
D|----------------55----------------7-77----------------77----------------|
A|----------------------------------5-55----------------------------------|
D|-0---0-------------0---0---------------0---0-------------0---0----------|
PM *   *             *   *               *   *             *   * 

E|------------------------------------------------------|
B|------------------------------------------------------|
G|-9-99---5---33-5-3-2------3---11-3-1------------------|
D|-9-99----------------33--------------00---------------|
A|-7-77-----------------------------------111111/555-55-|
D|------0---0-------------0---0-----------111111/555-55-|
PM      *   *             *   * 

Chorus
E|-----------------------------------------------------------------------|
B|-----------------------------------------------------------------------|
G|-----------------------------------------------------------------------|
D|-----------------55555555---------------------------------555-5-5------|
A|-11111111/555555-33333333-88888888-678-345555555-11111111-333-3-3-00-1-|
D|-11111111/555555----------88888888-678-345555555-11111111---------00-1-|
Tap to rate this tab
# A B C D E F G H I J K L M N O P Q R S T U V W X Y Z