Song name
# A B C D E F G H I J K L M N O P Q R S T U V W X Y Z

Washya - Engrave My Tomb tab

-----------------------------------------------------------------------------
           Engrave My Tomb - Washya (Very Heavy)
-----------------------------------------------------------------------------
Tuning: Drop C (DAFCGC)
Scream with intro

Intro                         (With Drums)
D|-------------------------|-------------------|
A|-------------------------|-------------------|
F|-------------------------|-------------------|
C|-5---6---5---6---3---3/5-|-------------------|
G|-5---6---5---6---3---3/5-|-000-000-000-000-0-|
C|---0---0---0---0---0-----|-000-000-000-000-0-|
PM   *   *   *   *   *    x3 *** *** *** *** 

Intro 2
D|--------------------------------|
A|--------------------------------|
F|--------------------------------|
C|--------------------------------|
G|-5-6-6-5h6-6-3-3/5-5h6-6\5/66-3-|
C|-5-6-6-5h6-6-3-3/5-5h6-6\5/66-3-|

Verses
D|----------------------------------------------|-------------------|
A|----------------------------------------------|-------------------|
F|----------------------------------------------|-------------------|
C|--------------------------------------5-------|-----5-------------|
G|----------5h6--------6p5h6--------5h6---6p5p3-|-5h6-5-6-5-3-5-3-0-|
C|-00000000-----000000-------000000-------------|-5h6---6-5-3-5-3-0-|
PM ********     ******       ******           x3

Chorus
D|------------------------------------------------------------|
A|------------------------------------------------------------|
F|-4444-4444-4------------------------------------------------|
C|-4444-4444-4-5-55555\33333-66776677-8-7-88-7-5-000-00-0-000-|
G|-2222-2222-2-3-33333\11111-44554455-6-5-66-5-3-000-00-0-000-|
C|-------------3-33333\11111-44554455-6-5-66-5-3-000-00-0-000-|

Verses
D|----------------------------------------------|-------------------|
A|----------------------------------------------|-------------------|
F|----------------------------------------------|-------------------|
C|--------------------------------------5-------|-----5-------------|
G|----------5h6--------6p5h6--------5h6---6p5p3-|-5h6-5-6-5-3-5-3-0-|
C|-00000000-----000000-------000000-------------|-5h6---6-5-3-5-3-0-|
PM ********     ******       ******           x3
Tap to rate this tab
# A B C D E F G H I J K L M N O P Q R S T U V W X Y Z