Song name
# A B C D E F G H I J K L M N O P Q R S T U V W X Y Z

Washya - Fuel Dump tab

-------------------------------------------------------------------------------
            Fuel Dump - Washya
-------------------------------------------------------------------------------
Tuning: Standard (EBGDAE)
Intro/Verses
E|-------------------------------------------------------|
B|-------------------------------------------------------|
G|-------------------------------------------------------|
D|-------------------------------------------------------|
A|-2222-222--2222-222-2-3-3-3-2222-222--2222-222-2-3-3-3-|
E|-0000-000--0000-000-0-1-1-1-0000-000--0000-000-0-1-1-1-|
PM **** ***  **** ***         **** ***  **** ***         

Main Riff/Chorus
E|---------------------------|
B|---------------------------|
G|---------------------------|
D|-----8\7---33333/555-5-----|
A|-5/8-6\5-5-11111/333-3-3/5-|
E|-3/6-----3-------------1/3-|

Solo
E|-------10---9-----10---9-----10---9-10p9p7-----------------------------|
B|-/-777----7---777----7---777----7----------9p8p7h9p8p7-----------------|
G|-------------------------------------------------------8p7p5h8p7p5-----|
D|-------------------------------------------------------------------7~\-|
A|-----------------------------------------------------------------------|
E|-----------------------------------------------------------------------|
Tap to rate this tab
 
# A B C D E F G H I J K L M N O P Q R S T U V W X Y Z