Song name
# A B C D E F G H I J K L M N O P Q R S T U V W X Y Z

Washya - Black Caviar tab

-----------------------------------------------------------------------------
                        Black Caviar - Washya
-----------------------------------------------------------------------------
Tuning: Drop D (DADGBE)
Intro
E|----------------------------------------------------------------|
B|----------------------------------------------------------------|
G|----------------------------------------------------------------|
D|----------------------------------------------------------------|
A|-12\\----3h5---5---5---5---5-33h5----5---5---5---555555/888\333-|
D|-12\\-00-----0---0---0---0---------0---0---0---0-555555/888\333-|
PM      **     *   *   *   *         *   *   *   * 

Verses
E|-----------------------------------------------|
B|-----------------------------------------------|
G|-----------------------------------------------|
D|-----------------------------------------------|
A|-------5-------6-------8-------3-------3-----3-|
D|-0-000---0-000---0-000---0-000---0-3-5---5-4-3-|
PM * ***   * ***   * ***   * ***   * * *   * * 

Chorus
E|-----------------------------------------------------------------------|
B|-----------------------------------------------------------------------|
G|---------6b~----6b~----6b~-----------------------------55----88--------|
D|------44-----44-----44-----44-5/7\5-2-0-2-0-2-3-2-0----55----88--------|
A|------44-----44-----44-----44-5/7\5-2-0-2-0-2-3-2-0----33----66-036530-|
D|-//xx-44-----44-----44-----44-5/7\5-2-0-2-0-2-3-2-0-00----00----036530-|
PM                                      * * * * *     **    **
Tap to rate this tab
# A B C D E F G H I J K L M N O P Q R S T U V W X Y Z