Song name
# A B C D E F G H I J K L M N O P Q R S T U V W X Y Z

Washya - Dangerous Eyes tab

-------------------------------------------------------------------------------
                         Dangerous Eyes - Washya
-------------------------------------------------------------------------------
Tuning: Standard (EBGDAE)
Intro/Verses
E|---------------------|
B|---/5p4p2-2h4p2------|
G|------------------4~-|
D|---------------------|
A|-0-------------------|
E|---------------------|

Chorus
E|---------------------------------------------------------|
B|---------------------------------------------------------|
G|-------2-----------------2-------------------------------|
D|-7--5--2--7--5--2--7--5--2--7--5--2/77777777\55555555--2-|
A|-7--5--0--7--5--2--7--5--0--7--5--2/77777777\55555555--2-|
E|-5--3-----5--3--0--5--3-----5--3--0/55555555\33333333--0-|
Tap to rate this tab
# A B C D E F G H I J K L M N O P Q R S T U V W X Y Z