Song name
# A B C D E F G H I J K L M N O P Q R S T U V W X Y Z

Washya - Time Of Day tab

-----------------------------------------------------------------------------
                           Time Of Day - Washya
-----------------------------------------------------------------------------
Tuning: Drop D (DADGBE)
Intro
E|-----------------------------------------------|
B|-----------------------------------------------|
G|-----------------------------------------------|
D|-----------------------------------------------|
A|-0-6-0-6-0-6-0-6p5/8888-0-3-0-3-0-3-0-3p2/5555-|
D|-0-6-0-6-0-6-0-6p5/8888-0-3-0-3-0-3-0-3p2/5555-|

Verses
E|--------------------------------------------------------------------|
B|-10-10--10-10--10-10----------------------------------101010-101010-|
G|-10-10--10-10--10-10----------------------------------101010-101010-|
D|-10-10--10-10--10-10----------------------------------101010-101010-|
A|---------------------000-000-000-02023202-000-000-000---------------|
D|---------------------000-000-000-02023202-000-000-000---------------|
PM                     *** *** ***          *** *** *** 

Chorus
E|-------------------------------------------------|
B|-------------------------------------------------|
G|-2-22------------2-22/7-5-------2-22-------------|
D|-2-22-55-6-5-3-2-2-22/5-5-5-3-5-2-22-3-6-5-2-3-2-|
A|-0-00-55-6-5-3-2-0-00/5-3-5-3-5-0-00-3-6-5-2-3-2-|
D|------55-6-5-3-2----------5-3-5------3-6-5-2-3-2-|

Interlude/Outro
E|-------------------------------------------------------|
B|-------------------------------------------------------|
G|-------------------------------------------------------|
D|--------------------5/7--------------------------------|
A|-000-000-000-000-00-3/5-2h3-000-000-000-000-00-3h5-1h3-|
D|-000-000-000-000-00-----2h3-000-000-000-000-00-3h5-1h3-|
PM *** *** *** *** **         *** *** *** *** ** 
Tap to rate this tab
 
# A B C D E F G H I J K L M N O P Q R S T U V W X Y Z