Song name
# A B C D E F G H I J K L M N O P Q R S T U V W X Y Z

Washya - Never Compromised tab

-------------------------------------------------------------------------------
         Never Compromised - Washya
-------------------------------------------------------------------------------
Tuning: Standard (EBGDAE)
Intro
E|--------------------------------------------------------------------------|
B|--------------------------------------------------------------------------|
G|--------------------------------------------------------------------------|
D|--------------------------------------------------------------------------|
A|---4-5-4---4-5-4---4-5-4---4-5-4----6-7-6---6-7-6---6-7-6---6-7-6-6-5-4-2-|
E|-2-------2-------2-------2-------/4-------4-------4-------4-------4-3-2-0-|
PM *       *       *       *        *       *       *       *       * * * 

Verses
E|-------------------------------------------------------------------|
B|-------------------------------------------------------------------|
G|--------------------------------------------3----------------------|
D|------------------------------------3-5-3--------------------------|
A|-222222222222-77/8-4/5-222222222222-------6---222222222222-5-4-3-2-|
E|-000000000000-55/6-2/3-000000000000-----------000000000000-3-2-1-0-|
PM ************          ************           ************ 

Chorus
E|------------------------------------------------|
B|---------9b----12b----15b-----------------------|
G|---------9b----12b----15b-----------------------|
D|------------------------------------------------|
A|------22----22-----22-----22-2-5-4-222222-555-5-|
E|-//xx-00----00-----00-----00-0-3-2-000000-333-3-|
PM      **    **     **     ** *          
Tap to rate this tab
 
# A B C D E F G H I J K L M N O P Q R S T U V W X Y Z