Song name
# A B C D E F G H I J K L M N O P Q R S T U V W X Y Z

Washya - Silent Invisible Invincible tab

-----------------------------------------------------------------------------
           Silent, Invisible, Invincible - Washya
-----------------------------------------------------------------------------
Tuning: Drop D (DADGBE)
Intro
E|---------------------------------------------------------------|
B|---------------------------------------------------------------|
G|---7-7h8p7-------------------5---------------0h1p0-----1-----0-|
D|---------------------2---5h6---6p5p3h5---------------2-----2---|
A|-----------0h2h5-0h2-------------------6p5---------2-----2-----|
D|-0---------------------0-------------------0-------------------|
PM *                     *                   * 

Verses (Volume Swell)
E|-----------------------------------------------------------------------|
B|-----------------------------------------------------------------------|
G|-----8---5-------------------------6---3-------------------------------|
D|-----8---5-----------5-------------6---3-------------3-----------------|
A|-----6---3-------5h6---6p5p3h5-----4---1-----------5---6-5-3-----1---4-|
D|-000---0---00000---------------000---0---00000-3-6-----------000-1-0-4-|
PM ***   *   *****               ***   *   ***** * * *         ***   * 

E|---------------|
B|---------------|
G|---------------|
D|---------------|
A|---------------|
D|-5h6p5p3h5p3-0-|

Chorus
E|-------------------------------------------------------------------------|
B|-------------------------------------------------------------------------|
G|-------------------------------------------------------------------------|
D|-5/7-5/7/8-5---------------------------------3---6p5---------------------|
A|-3/5-3/5/6-3-5555555-1111111-000-3-0-4-0-1-0-1-/-----5h6---3~-00-1-0-3-0-|
D|-------------5555555-1111111-000-3-0-4-0-1-0-------------5----00-1-0-3-0-|
PM                             *** * * * * * *                  ** * * * *  

E|---------------------------------------------------------------------|
B|---------------------------------------------------------------------|
G|---------------------------------------------------------------------|
D|---------5-/8p7----------------5--------3-/3p2-----------------------|
A|-4-0-3-0-3------7\5-1/3--------3--------1------2h3p2-2---------------|
D|-4-0-3-0------------1/3-333333-3-111111-1------------2-222222-000-00-|
   * * * *                ******   ******                ****** *** ** 

Verses (Volume Swell)
E|-----------------------------------------------------------------------|
B|-----------------------------------------------------------------------|
G|-----8---5-------------------------6---3-------------------------------|
D|-----8---5-----------5-------------6---3-------------3-----------------|
A|-----6---3-------5h6---6p5p3h5-----4---1-----------5---6-5-3-----1---4-|
D|-000---0---00000---------------000---0---00000-3-6-----------000-1-0-4-|
PM ***   *   *****               ***   *   ***** * * *         ***   * 

E|---------------|
B|---------------|
G|---------------|
D|---------------|
A|---------------|
D|-5h6p5p3h5p3-0-|



Chorus
E|-------------------------------------------------------------------------|
B|-------------------------------------------------------------------------|
G|-------------------------------------------------------------------------|
D|-5/7-5/7/8-5---------------------------------3---6p5---------------------|
A|-3/5-3/5/6-3-5555555-1111111-000-3-0-4-0-1-0-1-/-----5h6---3~-00-1-0-3-0-|
D|-------------5555555-1111111-000-3-0-4-0-1-0-------------5----00-1-0-3-0-|
PM                             *** * * * * * *                  ** * * * *  

E|---------------------------------------------------------------------|
B|---------------------------------------------------------------------|
G|---------------------------------------------------------------------|
D|---------5-/8p7----------------5--------3-/3p2-----------------------|
A|-4-0-3-0-3------7\5-1/3--------3--------1------2h3p2-2---------------|
D|-4-0-3-0------------1/3-333333-3-111111-1------------2-222222-000-00-|
   * * * *                ******   ******                ****** *** ** 
Tap to rate this tab
# A B C D E F G H I J K L M N O P Q R S T U V W X Y Z