Song name
# A B C D E F G H I J K L M N O P Q R S T U V W X Y Z

Washya - Saddened Feeling tab

-----------------------------------------------------------------------------
                   Saddened Feeling - Washya
-----------------------------------------------------------------------------
Tuning: Drop D (DADGBE)
Intro
E|-------------------------------------------------------------------------|
B|-------------------------------------------------------------------------|
G|-------------------------------------------------------------------------|
D|-------------------------------------------------------------------------|
A|------5------6------8------5h6p3------3------5------6------5h6p5------33-|
D|-0000---0000---0000---0000-------0000---0000---0000---0000-------0000-33-|
PM ****   ****   ****   ****       ****   ****   ****   ****       **** 

Verses
E|-------------------------------------------------------------------------|
B|-------------------------------------------------------------------------|
G|-------------------------------------------------------------------------|
D|-------------------------------------------------------------------------|
A|------5------6------3------8------9------8h9p8------3------5------6-3-33-|
D|-0000---0000---0000---0000---0000---0000-------0000---0000---0000---3-33-|
PM ****   ****   ****   ****   ****   ****       ****   ****   ****   * 

Chorus
E|-----------------5-----5-------------------------<5>----------------------|
B|-------------------5-----5---------------------------<5>------------------|
G|---------------------------------------------------------<5>--------------|
D|---------------------7-----3----------------------------------3-333-------|
A|-4-4444-2-2222-0-------------4-4444-2-2222-55555--------------1-111-3-333-|
D|-4-4444-2-2222-0-------------4-4444-2-2222-55555--------------------3-333-|

E|---0-----0-----|
B|-----3-----3---|
G|-------0-----2-|
D|---------------|
A|-0-------------|
D|-0-------------|
Tap to rate this tab
# A B C D E F G H I J K L M N O P Q R S T U V W X Y Z