Song name
# A B C D E F G H I J K L M N O P Q R S T U V W X Y Z

Washya - Shadow Town tab

-----------------------------------------------------------------------------
        Shadow Town - Washya
-----------------------------------------------------------------------------
Tuning: Standard (EBGDAE)
Intro/Verses
E|---2-3-2---3---2-----1-0---3--------3---2-3-2-----3-2------1-0---|
B|-------------------1---------2------------------1--------2-----1-|
G|-1-------1---1---0-------1------0-1---1-------1--------0-------2-|
D|---------------------------------------------------------------2-|
A|-----------------------------------------------------------------|
E|-----------------------------------------------------------------|

Chorus
E|------------------------------------------------------|
B|------------------------------------------------------|
G|---------------------------------/10bp7-10p9p7--------|
D|-7777-77-5--7777-77-5--9999-99-7---------------9-7-9~-|
A|-7777-77-5--7777-77-5--7777-77-5----------------------|
E|-5555-55-3--5555-55-3--5555-55-3----------------------|

Lead
E|------------------------------------------10b-10bh13bp12p10h12~~-|
B|------------------------------------------10b-10b----------------|
G|-----55--------9b-9p7h10b-12b-10h12p10h12------------------------|
D|-5h7----77-55~---------------------------------------------------|
A|-----------------------------------------------------------------|
E|-----------------------------------------------------------------|

Intro/Verses
E|---2-3-2---3---2-----1-0---3--------3---2-3-2-----3-2------1-0---|
B|-------------------1---------2------------------1--------2-----1-|
G|-1-------1---1---0-------1------0-1---1-------1--------0-------2-|
D|---------------------------------------------------------------2-|
A|-----------------------------------------------------------------|
E|-----------------------------------------------------------------|
Tap to rate this tab
# A B C D E F G H I J K L M N O P Q R S T U V W X Y Z