Song name
# A B C D E F G H I J K L M N O P Q R S T U V W X Y Z

Washya - Reality Lost tab

-------------------------------------------------------------------------------
                Reality Lost - Washya
-------------------------------------------------------------------------------
Tuning: Drop D (DADGBE)
Intro
E|----------------------------------------------|
B|----------------------------------------------|
G|----------------------------------------------|
D|----------88\7\5----------------------------5-|
A|-00000000-66\5\3-0-3-5-00000000-6-5-3-0-3-5-3-|
D|-00000000--------0-3-5-00000000-6-5-3-0-3-5---|
PM ^^^^^^^^              ^^^^^^^^ 

Verses
E|---------------------|------------|
B|---------------------|------------|
G|---------------------|------------|
D|---------5---------3-|------------|
A|-33h5p33-3-11h3p11-1-|-555-5-11/3-|
D|-33h5p33---11h3p11---|-555-5-11/3-|
PM ^^^  ^^   ^^^ ^^^ x3   

Chorus
E|------------------------------------------|
B|------------------------------------------|
G|------------------------------------------|
D|----------------------------------555-5-5-|
A|-0-0-00-6\5-0-00-x-3-333-11111-xx-333-3-3-|
D|-0-0-00-6\5-0-00-x-3-333-11111-xx---------|

Interlude
E|---------------------------------------------------------------------|
B|---------------------------------------------------------------------|
G|---------------------------------------------------------------------|
D|-----------------------3h4h5-----------------------------7p6p5-------|
A|-----------------3h4h5-------3h4h5-----------------7p6p5-------7p6p5-|
D|-0-0-0-0-0-0-0-0-------------3h4h5-0-0-0-0-0-0-0-0-------------7p6p5-|
PM ^ ^ ^ ^ ^ ^ ^ ^                   ^ ^ ^ ^ ^ ^ ^ ^ 

Chorus
E|------------------------------------------|
B|------------------------------------------|
G|------------------------------------------|
D|----------------------------------555-5-5-|
A|-0-0-00-6\5-0-00-x-3-333-11111-xx-333-3-3-|
D|-0-0-00-6\5-0-00-x-3-333-11111-xx---------|
Tap to rate this tab
 
# A B C D E F G H I J K L M N O P Q R S T U V W X Y Z