Song name
# A B C D E F G H I J K L M N O P Q R S T U V W X Y Z

Washya - Lake Alkalai tab

-----------------------------------------------------------------------------
              Lake Alkalai - Washya
-----------------------------------------------------------------------------
Tuning: Standard (EBGDAE)
Intro
E|------------------------------------------------|
B|------------------------------------------------|
G|------------------------------------------------|
D|-2h3-3p2p0---2---------3-2------3-2-------------|
A|-----------3---3p2p0-5-----3-5------5---2-------|
E|--------------------------------------3---5-3-2-|
PM *** ***** * * ***** * * * * *  * * * * * * * * x3

Part 2
E|----------------------------------------------------------------|
B|----------------------------------------------------------------|
G|-/7~-10p9~------------------------------------------------------|
D|-----------3~-6~----3p2p0-2---2---------3-2---------------------|
A|-----------------5~---------3---3p2p0-5-----3p2p0---3-2-3-------|
E|--------------------------------------------------5-------5-3-2-|
PM                    ***** * * * ***** * * * ***** * * * * * * * 

Verses
E|-----------------------------------------------------------------|
B|-----------------------------------------------------------------|
G|-------------------------------------------------------------5---|
D|----------------3p2p0---2p0---3p2----------------------------5-3-|
A|----------------------3-----5-----3p2p0----------------------3-3-|
E|-00000000000000-------------------------5p3p2-00000000000000---1-|
PM ************** ***** * *** * *** ***** ***** ************** 

Chorus
E|--------------------------------------------------------|
B|--------------------------------------------------------|
G|--------------------------------------------------------|
D|-----5-----8-----7---5-----7-------------------33333-22-|
A|-----3-----6-----9---3-----5---5---8---7---3-//11111-00-|
E|-000---000---000---0---000---0-3-0-6-0-5-0-1------------|
PM ***   ***   ***   *   ***   *   *   *   * 
Tap to rate this tab
# A B C D E F G H I J K L M N O P Q R S T U V W X Y Z