Song name
# A B C D E F G H I J K L M N O P Q R S T U V W X Y Z

Washya - Live And Let Live tab

-----------------------------------------------------------------------------
        Live and Let Live - Washya 
-----------------------------------------------------------------------------
Tuning: Standard (EBGDAE)
Intro/Verses
E|-----5------------------3/5~-|
B|---7-5-7-5---5----5\3-5-3/5~-|
G|---7---7-5-7-5h7bp5\3-5------|
D|-----------7-----------------|
A|-0---------------------------|
E|-----------------------------|

Chorus
E|--------------------<5>-|
B|--------------------<5>-|
G|-5h77p5--2h444p2----<5>-|
D|-5h77p5--2h444p2--------|
A|-5-55-5--2-222-2-5/6----|
E|-----------------3/4----|

Lead/section 1
E|-----------------------------------------7/-7---------------------|
B|--9b-9b---------------7b-----8-6-------5-7----10-8-7--------------|
G|--9b-9b-9p7-9-7-------7b-----8---7-5-4---------------10-9-7-------|
D|----------------9-7-9----7h9--------------------------------7~~\\-|
A|------------------------------------------------------------------|
E|------------------------------------------------------------------|

Section 2
E|----17b------------13h17p14-----------------------------|
B|-//-17bp-15~-13-15----------15b-15b\12~-------12-12-----|
G|----------------------------------------12h14-12-12-----|
D|----------------------------------------12h14-------14~-|
A|--------------------------------------------------------|
E|--------------------------------------------------------|

Section 3
E|-----13-----18b~-18-----------------------|
B|-15b----15b---------21-19-18--------------|
G|-----------------------------21-20-18-----|
D|--------------------------------------18~-|
A|------------------------------------------|
E|------------------------------------------|
Tap to rate this tab
 
# A B C D E F G H I J K L M N O P Q R S T U V W X Y Z