Song name
# A B C D E F G H I J K L M N O P Q R S T U V W X Y Z

Washya - Tainted Conclusion tab

-----------------------------------------------------------------------------
           Tainted Conclusion - Washya (Heavy)
-----------------------------------------------------------------------------
Tuning: Drop D (DADGBE)
Intro
E|-----------------|
B|-----------------|
G|-----------------|
D|-----------------|
A|-00--00-------00-|
D|-00--00--//xx-00-|x3
PM **  **       ** 

Main Riff/Chorus
E|-----------------------------------------------------------------------|
B|-----------------------------------------------------------------------|
G|-----------------------------------------------------------------------|
D|-0h3---0h3-------------------------------------0h3---0h3---------------|
A|-----5-----5-5p3p0-5p3p0-0h3-5-0h3-5-5/6-5/6\5-----5-----5-5p3p0-5p3p0-|
D|-----------------------------5-----5-5/6-5/6\5-------------------------|

E|-----------------------|-----------------|
B|-----------------------|-----------------|
G|-----------------------|-----------------|
D|-----------------------|-----------------|
A|-0h1-3-0h1-3-3/4-3/3\3-|-111-000-111-000-|
D|-----3-----3-3/4-3/4\3-|-111-000-111-000-|
PM                         *** *** *** *** 

Verses
E|---------------------------------------------|
B|---------------------------------------------|
G|---------------------------------------------|
D|-xxx-xxx-1-0-xxx-xxx-2\1-xxx-xxx-1-0-xxx-xxx-|
A|-xxx-xxx-1-0-xxx-xxx-2\1-xxx-xxx-1-0-xxx-xxx-|
D|-xxx-xxx-1-0-xxx-xxx-2\1-xxx-xxx-1-0-xxx-xxx-|
Tap to rate this tab
# A B C D E F G H I J K L M N O P Q R S T U V W X Y Z