Song name
# A B C D E F G H I J K L M N O P Q R S T U V W X Y Z

Washya - Moonlighting tab

-----------------------------------------------------------------------------
                         Moonlighting - Washya
-----------------------------------------------------------------------------
Tuning: Drop D (DADGBE)
Intro
E|-5---7---3---1---0-|
B|-5---7---3---1---3-|
G|-7---9---5---3---2-|
D|-5---7---3---1---0-|
A|-5---7---3---1---0-|
D|-5---7---3---1---0-|x3

Verses
E|-------------------------------------------------------------------------|
B|-------------------------------------------------------------------------|
G|-----7-----7-----7-----9-----9-----9-----5-----5-----5-----3-----3-----3-|
D|-------------------------------------------------------------------------|
A|---5-----5-----5-----7-----7-----7-----3-----3-----3-----1-----1-----1---|
D|-5-----5-----5-----7-----7-----7-----3-----3-----3-----1-----1-----1-----|
PM * *   * *   * *   * *   * *   * *   * *   * *   * *   * *   * *   * * 

E|-----0---------0---------0-----|
B|---------3---------3---------3-|
G|-------2---------2---------2---|
D|-------------------------------|
A|---0---------0---------0-------|
D|-0---------0---------0---------|
PM * *       * *       * *   

Chorus
E|-------------------------------------------------------------------|
B|-------------------------------------------------------------------|
G|-------------------------------------------------------------------|
D|-77-7777-555-55-55-55-33-3333-111-11-11-11-77-7777-44-4444-55-5555-|
A|-77-7777-555-55-55-55-33-3333-111-11-11-11-77-7777-44-4444-55-5555-|
D|-77-7777-555-55-55-55-33-3333-111-11-11-11-77-7777-44-4444-55-5555-|
                                ^^^ ^^ ^^ ^^               
                                    ONE'S
 
Guitar Solo (steady pace)
E|------------------------------------------------------13h15p13~-|
B|-----------13-13-15b-15b-15b~-----------13-13-15b-15b-----------|
G|-/12-13-15--------------------/12-13-15-------------------------|
D|----------------------------------------------------------------|
A|----------------------------------------------------------------|
D|----------------------------------------------------------------|

E|-------------------13p12/15b~-15-12----12----12h15p12----15p14p12--------|
B|-----------14b-14b------------------14----14----------14----------14-14~-|
G|-/12-13-15---------------------------------------------------------------|
D|-------------------------------------------------------------------------|
A|-------------------------------------------------------------------------|
D|-------------------------------------------------------------------------|
Tap to rate this tab
# A B C D E F G H I J K L M N O P Q R S T U V W X Y Z