Song name
# A B C D E F G H I J K L M N O P Q R S T U V W X Y Z

Washya - Guardian tab

-----------------------------------------------------------------------------
                          Guardian - Washya
-----------------------------------------------------------------------------
Tuning: Standard (EBGDAE)
Intro
E|-----------------------------------|
B|-----------------------------------|
G|-----------------------------------|
D|-------8-------88-------8-------88-|
A|-------6-------66-------6-------66-|
E|-00000---00000----00000---00000----|
PM *****   *****    *****   ***** 

Main Riff/Chorus
E|---------------------------|
B|---------------------------|
G|---------------------------|
D|-------8-------555---555---|
A|-------6-8-6---333-5-333-5-|
E|-00000---6-4-0-----3-----3-|
PM *****       * 

Verses
E|------------------------------------------------------------------------|
B|------------------------------------------------------------------------|
G|--------------------------------------------------9---------------------|
D|-----------------------9-------------------9-7-10---9h10p7------9-------|
A|------9-------9-7-9-10--------9-------7-10-----------------7-10---------|
E|-7-10----7-10------------7-10---7-8-5-----------------------------7h8p5-|
Tap to rate this tab
# A B C D E F G H I J K L M N O P Q R S T U V W X Y Z