Song name
# A B C D E F G H I J K L M N O P Q R S T U V W X Y Z

Washya - Strike The Enemy tab

-----------------------------------------------------------------------------
                  Strike The Enemy - Washya
-----------------------------------------------------------------------------
Tuning: Drop C (DAFCGC)
Intro
D|--------------------------------------------|
A|--------------------------------------------|
F|--------------------------------------------|
C|---7/10-5/8--------------10\7-5/7-----------|
G|---5/-8-3/6-3-3/6-5-3----8-\5-3/5-3-3/5-3-2-|
C|-0----------3-3/6-5-3--0----------3-3/5-3-2-|
PM *          * *        *          * * 

Verses                           
D|------------------------------|------------|
A|------------------------------|------------|
F|------------------------------|-5555-44----|
C|------------------------------|-5555-44-33-|
G|------------------------------|-3333-33-33-|
C|-0000630360630360630360063036-|---------33-|
PM **************************** 

Chorus
D|-------------------------------------------------------------------|
A|-------------------------------------------------------------------|
F|-------------------------------------------------------------------|
C|-------------------------------------------------------------------|
G|-0-0-000000-00-000-000-101010-1010-1010-10\777-77-77-7/888-88-88-8-|
C|-0-0-000000-00-000-000-101010-1010-1010-10\777-77-77-7/888-88-88-8-|

D|---------------------------------|
A|---------------------------------|
F|-------------5555-44-------------|
C|-------------5555-44-------------|
G|-555-55-55-5-3333-33-333-33-33-3-|
C|-555-55-55-5---------333-33-33-3-|

Interlude x3
D|-----------------------------------------|
A|-----------------------------------------|
F|-5h7p5---5-------------------------------|
C|-------7---7-6-5---5---------------------|
G|-----------------7---7-6-----2-222-2-222-|
C|-------------------------5-3-2-222-2-222-|
PM                             * *** * *** 
Tap to rate this tab
# A B C D E F G H I J K L M N O P Q R S T U V W X Y Z