Song name
# A B C D E F G H I J K L M N O P Q R S T U V W X Y Z

Washya - Steel Magnolias tab

-------------------------------------------------------------------------------
                    Steel Magnolias - Washya
-------------------------------------------------------------------------------
Tuning: Standard (EBGDAE)
Intro
E|----------------------------------------------------|
B|----------------------------------------------------|
G|----------------------------------------------------|
D|-5-55------33-33--5-55------33-2-3--5-55------33----|
A|-3-33-5-55-11-11--3-33-5-55-11-0-1--3-33-5-55-11-22-|
E|------3-33-------------3-33--------------3-33----00-|

Verses
E|-----------------------------------------------|
B|-----------------------------------------------|
G|-----------------------------------------------|
D|-555-55-5-5-555--------------------------------|
A|-333-33-3-3-333-333-33-3-3-333-2-222-2-2--2-22-|
E|----------------111-11-1-1-111-0-000-0-0--0-00-|
PM *   ** *    **  **    * *     *   * * *    *  

Chorus
E|-------------------------------------------------|
B|-------------------------------------------------|
G|-------------------------------------------------|
D|---------------------------5/9-----5/9-----------|
A|-5/9-5/9-9/10--7/9-5/7-4/5-3/7-5/7-3/7-5/7-4/5-2-|
E|-3/7-3/7-7/-8--5/7-3/5-2/3-----3/5-----3/5-2/3-0-|
Tap to rate this tab
 
# A B C D E F G H I J K L M N O P Q R S T U V W X Y Z