Song name
# A B C D E F G H I J K L M N O P Q R S T U V W X Y Z

Washya - Greed And Loneliness tab

-------------------------------------------------------------------------------
                      Greed and Loneliness - Washya
-------------------------------------------------------------------------------
Tuning: Standard (EBGDAE)
Intro 
E|------------------------------------|
B|------------------------------------|
G|-5------3-2----5---33-----5555-5555-|
D|---3-55-----33---5----3-5-5555-5555-|
A|--------------------------3333-3333-|
E|------------------------------------|

Verses
E|--------------------------------------------------------------------------|
B|--------------------------------------------------------------------------|
G|-9b-7-5-7b-5h7p5---------7b~-9b---7---7------------------------------4444-|
D|-----------------7-5-7-5--------9---9---9--7-9b~---5h7p5-5h7p5p4-----4444-|
A|-----------------------------------------------------------------2h4-2222-|
E|--------------------------------------------------------------------------|

Chorus
E|--------------------------------|
B|--------------------------------|
G|-------7--9--------5--8888-8888-|
D|-8--5--7--9--8--5--5--8888-8888-|
A|-8--5--5--7--8--5--3--6666-6666-|
E|-6--3--------6--3---------------|
Tap to rate this tab
 
# A B C D E F G H I J K L M N O P Q R S T U V W X Y Z