Song name
# A B C D E F G H I J K L M N O P Q R S T U V W X Y Z

Washya - Speed Train tab

-------------------------------------------------------------------------------
            Speed Train - Washya
-------------------------------------------------------------------------------
Tuning: Drop D (DADGBE)
Intro
E|--------------------------------------------------------------------------|
B|--------------------------------------------------------------------------|
G|--------------------------------------------------------------------------|
D|--------------------------------------------------------------------------|
A|-//xx-5555555555555555\3333333333333333\2222222222222222-0000000000000000-|
D|-//xx-5555555555555555\3333333333333333\2222222222222222-0000000000000000-|

E|----------------------------------------------------|
B|----------------------------------------------------|
G|-8\7-5/7--------------------------------------------|
D|-8\7-5/7--------------------------------------------|
A|-6\5-3/5-5555555555555555-1111111111111111/999-9-66-|
D|---------5555555555555555-1111111111111111/999-9-66-|

Verses
E|------------------------------------------------------------------------|
B|------------------------------------------------------------------------|
G|------------------------------------------------------------------------|
D|------------------------------------------------------------------------|
A|--------------3h6-3h5-3h6-3h5--------------1h4-1h3-1h4-1h3--------------|
D|-000000000000-----------------000000000000-----------------000000000000-|
PM ************                 ************                 ************ 

E|----------------------------------------|
B|----------------------------------------|
G|----------------------------------------|
D|----------------------------------------|
A|-8\7-5h7-3/5--------------3/4-1/3-0h1-0-|
D|-8\7-5h7-3/5-000000000000-3/4-1/3-0h1-0-|
               ************ 

Chorus
E|-----------------------------------------------------------------------|
B|-----------------------------------------------------------------------|
G|-----------------------------------------------------------------------|
D|------------------------------------------------5/7--------5-4-3-------|
A|----3---4---5---6---3/5-----3---4---6---5---1---3/5-/5-4-3-------3-4-5-|
D|-00---0---0-5-0-6-0-3/5--00---0---0-6-0-5-0-1-0------------------3-4-5-|
PM **   *   *   *   *      **   *   *   *   *   * 
Tap to rate this tab
# A B C D E F G H I J K L M N O P Q R S T U V W X Y Z