Song name
# A B C D E F G H I J K L M N O P Q R S T U V W X Y Z

Washya - Electric Blue Bell tab

------------------------------------------------------------------------------
          Electric Blue Bell - Washya
----------------------------------------------------------------------------
Tuning: Standard (EBGDAE)
Intro
E|--------------------------0-------------0-----0-------0-------|
B|-----4---4--4---4--4---4----4-------5------5------5-----5-----|
G|-------0------0------0--------0-------4------4------4-----4---|
D|------------------------------------------------------------0-|
A|-0-0----------------------------0-0---------------------------|
E|--------------------------------------------------------------|

Verses
E|---------------------------|
B|--------------------777777-|
G|--------------------777777-|
D|-7-------8-5--------777777-|
A|-7-------8-5-------/555555-|
E|-5555555/6\3333333---------|
PM  ******    ****** 

Chorus
E|-----------------------------------------------------------------------|
B|-----------------------------------------------------------------------|
G|-777-10-10-55-------------------------77/99-10-9-7---------------99999-|
D|-777/10-10-55-5555555\3333333-2222222-77/99-10-9-7-7-5-5-7-5-4-2-99999-|
A|-555/8--8--33-5555555\3333333-2222222-55/77-8--7-5-7-5-5-7-5-4-2-77777-|
E|--------------3333333\1111111-0000000--------------5-3-3-5-3-2-0-------|

Lead
E|--------------------------------------------------------------|
B|-----------9p7p6---6-------7---------7-8-10-12b/15b/17b-19b~~-|
G|-/7h8/10b~-------9---9-7-6---6-9-7-6--------------------------|
D|--------------------------------------------------------------|
A|--------------------------------------------------------------|
E|--------------------------------------------------------------|
Tap to rate this tab
# A B C D E F G H I J K L M N O P Q R S T U V W X Y Z