Song name
# A B C D E F G H I J K L M N O P Q R S T U V W X Y Z

Washya - Killing Fields tab

-----------------------------------------------------------------------------
          Killing Fields - Washya
-----------------------------------------------------------------------------
Tuning: Drop D (DADGBE)
Intro
E|-----------------------|
B|-----------------------|
G|-----------------------|
D|-----------------------|
A|-0-0-0-22-3-0-0-0-22-3-|
D|-0-0-0-22-3-0-0-0-22-3-|
PM * * *      * * * 

Main Riff/Chorus
E|-----------------------------------------------------------------|
B|---------2---------2---------2-----------------------------------|
G|---------2---------2---------2---------2---------2---------2-----|
D|-----4h5-------4h5-------4h5-----------2---------2---------2-----|
A|-222-------222-------222-------222-4/5---222-4/5---222-4/5---1/3-|
D|-222-------222-------222-------222-4/5---222-4/5---222-4/5---1/3-|

Verses (Play Fast)
E|--------------------------------------------|
B|--------------------------------------------|
G|--------------------------------------------|
D|-------7-6-5-------5-4-3-------10-9-8-------|
A|-3-4-5-5-4-3-1-2-3-3-2-1-6-7-8-8--7-6-2-3-4-|
D|-3-4-5-------1-2-3-------6-7-8--------2-3-4-|
PM * * *       * * *       * * *        * * *  
Tap to rate this tab
 
# A B C D E F G H I J K L M N O P Q R S T U V W X Y Z