Song name
# A B C D E F G H I J K L M N O P Q R S T U V W X Y Z

Washya - Turn Over Construction tab

-------------------------------------------------------------------------------
           Turn Over Construction - Washya
-------------------------------------------------------------------------------
Tuning: Drop D (DADGBE)
Intro
E|---------------------------------------------------------------|
B|---------------------------------------------------------------|
G|-----------------------------------------------------------5-3-|
D|-----------3-----------3-----------3-----------3-----------5-3-|
A|-----3-4-5-------3-4-5-------3-4-5-------3-4-5-------3-4-5-3-1-|
D|-3-5---------3-5---------3-5---------3-5---------3-5-----------|
PM * *         * *         * *         * *         * * 

Verses
E|-----------------------------------------------------------------------|
B|-----------------------------------------------------------------------|
G|-----------------------------------------------------------------------|
D|-----0-----0-----0-------5-----5-----5-------8-----8-----8-----0-----0-|
A|---0-----0-----0-------5-----5-----5-------8-----8-----8-----0-----0---|
D|-0-----0-----0-----/-5-----5-----5-----/-8-----8-----8-----0-----0-----|
PM * * * * * * * * *   * * * * * * * * *   * * * * * * * * * * * * * * *

E|---------------------|
B|---------------------|
G|---------------------|
D|-----0---------------|
A|---0---3-2-0-5-6-5-3-|
D|-0-----3-2-0-5-6-5-3-|
PM * * *  

Chorus
E|-------------------------------------------------------------|
B|-------------------------------------------------------------|
G|-------------------------------------------------------------|
D|-------------------------------------------------------------|
A|------2222222-44444444-555555-2222-2-5/8888888-666666-111111-|
D|-//xx-2222222-44444444-555555-2222-2-5/8888888-666666-111111-|
Tap to rate this tab
# A B C D E F G H I J K L M N O P Q R S T U V W X Y Z