Song name
# A B C D E F G H I J K L M N O P Q R S T U V W X Y Z

Washya - Rescue Me tab

-----------------------------------------------------------------------------
                      Rescue Me - Washya
-----------------------------------------------------------------------------
Tuning: Standard (EBGDAE)
Intro/Verses
E|------------------------------------------------------------------0-|
B|--------------------------------------5-----------5---------------0-|
G|-4------4------4-------4----------6-----6-----6-----6-------------0-|
D|-----4------4------4-----4------6---6-------6---6---------5-----3-2-|
A|---2------2------2---------2--4-----------4-------------5-----3---2-|
E|------------------------------------------------------3-----1-----0-|

Chorus
E|---------------------------------------|
B|---------------------------------------|
G|-444-66----------444-66----------66-88-|
D|-444-66-55-33-22-444-66-55-33-22-66-88-|
A|-222-44-55-33-22-222-44-55-33-22-44-66-|
E|--------33-11-00--------33-11-00-------|

Guitar Lead (play fast)

E|---5p3---5p3---5p3---5/7p5---7p5---7p5---7/9p7---9p7---9p7---9/12p10----|
B|-/-----4-----4-----4-------6-----6-----6-------8-----8-----8---------11-|
G|------------------------------------------------------------------------|
D|------------------------------------------------------------------------|
A|------------------------------------------------------------------------|
E|------------------------------------------------------------------------|

E|-12p10----12p10----12/14p12----14p12----14p12----14/17b-17b-17b~-|
B|-------11-------11----------13-------13-------13-----------------|
G|-----------------------------------------------------------------|
D|-----------------------------------------------------------------|
A|-----------------------------------------------------------------|
E|-----------------------------------------------------------------|

Tap to rate this tab
# A B C D E F G H I J K L M N O P Q R S T U V W X Y Z