Song name
# A B C D E F G H I J K L M N O P Q R S T U V W X Y Z

Washya - Black Dragon Slayer tab

-----------------------------------------------------------------------------
                      Black Dragon Slayer - Washya
-----------------------------------------------------------------------------
Tuning: Drop D (DADGBE)
Intro
E|------------------------------|
B|------------------------------|
G|------------------------------|
D|------------------------------|
A|------2/5-2/5-4-2-2/7-2/7-6-5-|
D|-//xx-2/5-2/5-4-2-2/7-2/7-6-5-|x3

Verses (1st time unmuted, 2nd time palm muted)
E|-----------------------------------------------------|
B|-----------------------------------------------------|
G|-----------------------------------------------------|
D|-----------------------------------------------------|
A|-0-2-0-5-4-2-0-0-2-0-5-4-2-0-0-2-0-7-6-5-0-2-0-7-6-5-|
D|-0-2-0-5-4-2-0-0-2-0-5-4-2-0-0-2-0-7-6-5-0-2-0-7-6-5-|

Chorus
E|-------------------------------------------------------------------|
B|-------------------------------------------------------------------|
G|-------------------------------------------------------------------|
D|-------------------------------------------------------------------|
A|-----22222222/55555555\22222222/7777777\55555/7-6-5\2222222/555555-|
D|-xx\\22222222/55555555\22222222/7777777\55555/7-6-5\2222222/555555-|

E|---------------------|
B|---------------------|
G|---------------------|
D|---------------------|
A|-2222222/7-6-5\2-4-5-|
D|-2222222/7-6-5\2-4-5-|

Solo
E|---------------------------------------------------------13----|
B|----7h8p7--------------8h9h11-13b-11-----11-11-----11-11----11-|
G|-9b-------9-7-9b-6h7h9---------------13b-------13b-------------|
D|---------------------------------------------------------------|
A|---------------------------------------------------------------|
D|---------------------------------------------------------------|

E|-11h15p13p11h15p13p11/13h17p15p13h17p15p13h17-17-17~~~-|
B|-------------------------------------------------------|
G|-------------------------------------------------------|
D|-------------------------------------------------------|
A|-------------------------------------------------------|
D|-------------------------------------------------------|
Tap to rate this tab
# A B C D E F G H I J K L M N O P Q R S T U V W X Y Z