Song name
# A B C D E F G H I J K L M N O P Q R S T U V W X Y Z

Washya - Psychosis tab

-----------------------------------------------------------------------------
                   Psychosis - Washya
-----------------------------------------------------------------------------
Tuning: Standard (EBGDAE)
Intro
E|-------------------------------------------------------|
B|-------------------------------------------------------|
G|-------------------------------------------------------|
D|-------------------------------------------------------|
A|-------------------------------------------------------|
E|-2222-2-2-22-2-2222-2-2-22-2-2222-2-2-22-2-2222-2-2-22-|
PM **** * * ** * **** * * ** * **** * * ** * **** * * ** 

Part 2                                                     1,  2 
E|-------------------------------------------------------|---|---|
B|-------------------------------------------------------|---|---|
G|-------------------------------------------------------|-6-|-4-|
D|-------------------------------------------------------|-6-|-4-|
A|-4444-4-4-44-4-4444-4-4-44-4-4444-4-4-44-4-4444-4-4-44-|-4-|-2-|
E|-------------------------------------------------------|---|---|
PM **** * * ** * **** * * ** * **** * * ** * **** * * ** 

Verses                                                     1   2
E|-------------------------------------------------------|---|---|
B|-------------------------------------------------------|---|---|
G|-------------------------------------------------------|-5-|-3-|
D|-------------------------------------------------------|-5-|-3-|
A|-------------------------------------------------------|-3-|-1-|
E|-0000-0-0-00-0-0000-0-0-00-0-0000-0-0-00-0-0000-0-0-00-|---|---|
PM **** * * ** * **** * * ** * **** * * ** * **** * * ** 

Chorus
E|---------------------------------------------------------------------|
B|---------------------------------------------------------------------|
G|-----------5-----------3-----------7-----------5---------------------|
D|-----------5-----------3-----------7-----------5-----------3/5---3/5-|
A|-----------3-----------1-----------5-----------3-----------3/5---3/5-|
E|-0000-00-0---0000-00-0---0000-00-0---0000-00-0---0000-00-0-1/3-0-1/3-|
PM **** ** *   **** ** *   **** ** *   **** ** *   **** ** *     * 
Tap to rate this tab
# A B C D E F G H I J K L M N O P Q R S T U V W X Y Z