Song name
# A B C D E F G H I J K L M N O P Q R S T U V W X Y Z

Washya - Illicit Undertakings tab

-----------------------------------------------------------------------------
                Illicit Undertakings - Washya
-----------------------------------------------------------------------------
Tuning: Drop C (DAFCGC)
Intro
D|-------------------------------------|
A|-------------------------------------|
F|-------------------------------------|
C|-------------------------------------|
G|-333h5p3h5p3h5p3h6-333h5p3h6p3h5p3p1-|
C|-333h5p3h5p3h5p3h6-333h5p3h6p3h5p3p1-|

Main Riff
D|----------------------------------|
A|----------------------------------|
F|----------------------------------|
C|----------------------------------|
G|-1-4-2-5-5-6-3-5--1-4-2-5-5-6-1-3-|
C|-1-4-2-5-5-6-3-5--1-4-2-5-5-6-1-3-|


Verses
D|------------------------------------------------------|
A|------------------------------------------------------|
F|-5555-55-5555-5/6--3333-33-3333-3/4--7777-77-7777-7/8-|
C|-3333-33-3333-3/4--1111-11-1111-1/2--5555-55-5555-5/6-|
G|-3333-33-3333-3/4--1111-11-1111-1/2--5555-55-5555-5/6-|
C|-3333-33-3333-3/4--1111-11-1111-1/2--5555-55-5555-5/6-|
PM **** ** ****      **** ** ****      **** ** **** 

Guitar Solo (FAST AND QUICK LEAD BREAK)
D|-----------------------------------------------------7-6-4---4-------|
A|-4b-4b-4b-4b-4b-4b-4b/7b-7b-7b-7b-7b-7b-7b---7b\4b-4-------6---7-6-4-|
F|-6b-6b-6b-6b-6b-6b-6b/9b-9b-9b-9b-9b-9b-9b---9b\6b-------------------|
C|---------------------------------------------------------------------|
G|---------------------------------------------------------------------|
C|---------------------------------------------------------------------|

D|-----9-8-6-------3-2-----5/8-7-----8-7-5---5-4-2-----------1--------|
A|-6-7-------8-7-5-----3-5-5-----5-7-------8-------3-1---1-3---3-1----|
F|-----------------------------------------------------2-----------2~-|
C|--------------------------------------------------------------------|
G|--------------------------------------------------------------------|
C|--------------------------------------------------------------------|

Intro
D|-------------------------------------|
A|-------------------------------------|
F|-------------------------------------|
C|-------------------------------------|
G|-333h5p3h5p3h5p3h6-333h5p3h6p3h5p3p1-|
C|-333h5p3h5p3h5p3h6-333h5p3h6p3h5p3p1-|


Verses
D|------------------------------------------------------|
A|------------------------------------------------------|
F|-5555-55-5555-5/6--3333-33-3333-3/4--7777-77-7777-7/8-|
C|-3333-33-3333-3/4--1111-11-1111-1/2--5555-55-5555-5/6-|
G|-3333-33-3333-3/4--1111-11-1111-1/2--5555-55-5555-5/6-|
C|-3333-33-3333-3/4--1111-11-1111-1/2--5555-55-5555-5/6-|
PM **** ** ****      **** ** ****      **** ** **** 
Tap to rate this tab
# A B C D E F G H I J K L M N O P Q R S T U V W X Y Z