Song name
# A B C D E F G H I J K L M N O P Q R S T U V W X Y Z

Washya - Blitzkrieg tab

-----------------------------------------------------------------------------
                               Blitzkrieg - Washya
-----------------------------------------------------------------------------
Tuning: Drop C (DAFCGC)
Intro/Verses
D|-------7-------7-------7h8p7-7-------------5-------5-------5h6p5-5-------|
A|-------7-------7-------7-------7-----------5-------5-------5-------5-----|
F|-------7-------7-------7---------7---------5-------5-------5---------5---|
C|-----5-------5-------5-------------5-----3-------3-------3-------------3-|
G|---5-------5-------5---------------5---3-------3-------3---------------3-|
C|-5-------5-------5-----------------5\3-------3-------3-----------------3-|

Main Riff/Chorus 
D|-------------------------------------------------------------------------|
A|-------------------------------------------------------------------------|
F|-------------------------------------------------------------------------|
C|-------------------------------3-4-6-66666/88888-------3-----------------|
G|-------3-----333333\111111-1-4-------44444/66666-----5---6-5-55555\22222-|
C|-3-5-6---5-6-333333\111111-----------------------5-6---------55555\22222-|

D|-------------------------------------------------------|--------------|
A|-------------------------------------------------------|--------------|
F|---------2---------------------------------------------|--------------|
C|-----2-0---0-2-222-333--------------5------------------|--------------|
G|-0-2-----------000-111-1111-000-7-8---8-7---33333/6666-|--------------|
C|-----------------------1111-000-----------5-33333/6666-|-000-0-0-0-00-|
PM                                                      x3 *** * * * ** 
Tap to rate this tab
# A B C D E F G H I J K L M N O P Q R S T U V W X Y Z