Song name
# A B C D E F G H I J K L M N O P Q R S T U V W X Y Z

Washya - You Want The Good Life tab

-----------------------------------------------------------------------------
               You Want The Good Life - Washya
-----------------------------------------------------------------------------
Tuning: Drop C (DAFCGC)
Intro
D|--------------0-|
A|--------------3-|
F|--------------2-|
C|--------------0-|
G|--------1-1-0-0-|
C|-1/12\\-1-1-0-0-|

Verses
D|-------------------------------------------|----------------------|
A|-------------------------------------------|----------------------|
F|-------------------------------------------|----------------------|
C|-------------------------------------------|----------------------|
G|------1-1-0-6-5-3-------1-1-0-3-2-1--1-1-0-|---------3h5-------6*-|
C|-12\\-1-1-0-6-5-3-/12\\-1-1-0-3-2-1--1-1-0-|-5h6-2h3-----5h6-3----|
                                           x5 x2

Chorus
D|--------------------------------------|
A|--------------------------------------|
F|-5-55------------7777/88--------------|
C|--------------------------------------|
G|-3-33-5/6-3-3333-5555/66-6-6666-5/6-0-|
C|------5/6-3-3333---------6-6666-5/6-0-|
PM            ****           **** 

Solo
D|----------------------------------------------------------12----12------|
A|----7h8p7----7h8p7----7h8p7-/9999/101010/12121212/14~-----12h14p12------|
F|-9b-------9b-------9b---------------------------------15b----------17~~-|
C|------------------------------------------------------------------------|
G|------------------------------------------------------------------------|
C|------------------------------------------------------------------------|
Tap to rate this tab
# A B C D E F G H I J K L M N O P Q R S T U V W X Y Z