Song name
# A B C D E F G H I J K L M N O P Q R S T U V W X Y Z

Washya - Implode tab

-----------------------------------------------------------------------------
                              Implode - Washya
-----------------------------------------------------------------------------
Tuning: Standard (EBGDAE)
Intro
E|-12t19p15p12t19p15p12t19p15p12h19p15p12-9t16p12p9t16p12p9t16p12p9-|
B|------------------------------------------------------------------|
G|------------------------------------------------------------------|
D|------------------------------------------------------------------|
A|------------------------------------------------------------------|
E|------------------------------------------------------------------|

E|-9t16p12p9t16p12p9-9p7p6h9p7p6h9p7p6-------------------------|
B|-------------------------------------5p3p2h5p3p2h5p3p2-p0\\\-|
G|-------------------------------------------------------------|
D|-------------------------------------------------------------|
A|-------------------------------------------------------------|
E|-------------------------------------------------------------|

Verses
E|------------------------------------------------------------------------|
B|-----------------------------------------12p10p9h10p9p7h9p7p6h7p6p4h6p4-|
G|------------------------------------------------------------------------|
D|---------5b-5b\2---------7b-7b\4----------------------------------------|
A|-2-3-5-3-5b-5b\2-2-3-5-3-7b-7b\4-2-3-5-3--------------------------------|
E|-0-1-3-1---------0-1-3-1---------0-1-3-1--------------------------------|
PM * * * *         * * * *         * * * * 

Chorus
E|------------------------------------------------------------------|
B|------------------------------------------------------------------|
G|------------------------------------------------------------------|
D|-------------------55555555-44444444----------------------8888-88-|
A|-33333333-77777777-33333333-22222222-55555555-22222222-//-6666-66-|
E|-11111111-55555555-------------------33333333-00000000------------|
Tap to rate this tab
 
# A B C D E F G H I J K L M N O P Q R S T U V W X Y Z