Song name
# A B C D E F G H I J K L M N O P Q R S T U V W X Y Z

Washya - Raise Your Game tab

-----------------------------------------------------------------------------
                 Raise Your Game - Washya
-----------------------------------------------------------------------------
Tuning: Standard (EBGDAE)
Intro
E|-----------5--------------------------3----------------------------0-|
B|---------5---5----------------------3---3--------------------------0-|
G|-------6-------6------------------4-------4------------------------1-|
D|-----7-----------7-----7777-----5-----------5-----5555-----0-----2-2-|
A|---7---------------7---7777---5---------------5---5555---2-----2---2-|
E|-5-------------------5-5555-3-------------------3-3333-3-----0-----0-|

Verses
E|-------------------------------------------|
B|-------------------------------------------|
G|-----------------------------------1-111---|
D|-7-77777777777777-5-55555555555555-2-222-2-|
A|-7-77777777777777-5-55555555555555-2-222-2-|
E|-5-55555555555555-3-33333333333333-0-000-0-|
PM   **************   **************    

Chorus
E|----------------------------------------------------|
B|----------------------------------------------------|
G|-------6------------4------------1-1p0---------1-11-|
D|-----7---7-77-----5---5-55-----2-------2p0---2-2-22-|
A|---7-----7-77---5-----5-55---2-------------2---2-22-|
E|-5-------5-55-3-------3-33-0-------------------0-00-|
PM * * * *      * * * *      * * * *            
Tap to rate this tab
# A B C D E F G H I J K L M N O P Q R S T U V W X Y Z