Song name
# A B C D E F G H I J K L M N O P Q R S T U V W X Y Z

Washya - Spilt Blood tab

-------------------------------------------------------------------------------
            Spilt Blood - Washya
-------------------------------------------------------------------------------
Tuning: Drop C (DAFCGC)
Intro
D|-----------------------------------------------------------|
A|-----------------------------------------------------------|
F|-----------------------------------------------------------|
C|----------5\4------5\4------5\4------5\4--------555555-----|
G|-22-222-2-----2222-----2222-----2222-----2222-x-333333-111-|
C|-22-222-2-----2222-----2222-----2222-----2222-x--------111-|
PM ** *** *     ****     ****     ****     **** 

Verses
D|--------------------------------------------------------------------------|
A|----------------------------------8---------------------------------------|
F|-------------------7*---------------9-----------------8p7-----------------|
C|-------------8p7----------------9-----9-------------------9---------------|
G|---------7h9-----9------------7---------7---------7h9-------7---------1-4-|
C|-000-000--------------000-000-------------000-000-------------000-000-1-4-|
PM *** ***              *** ***             *** ***             *** *** 

Chorus
D|------------------------------------------------------------|
A|------------------------------------------------------------|
F|------------------------------------------------------------|
C|----55-77-------77-55----------2----------------------------|
G|-22-33-55-7--22-55-33-5--0-2-3-2-33-xx-33-xx-33-xx-44-xx-33-|
C|-22-------5--22-------3--0-2-3---33-xx-33-xx-33-xx-44-xx-33-|
Tap to rate this tab
# A B C D E F G H I J K L M N O P Q R S T U V W X Y Z