Song name
# A B C D E F G H I J K L M N O P Q R S T U V W X Y Z

Washya - Cremated And Cursed tab

-----------------------------------------------------------------------------
                   Cremated And Cursed - Washya
-----------------------------------------------------------------------------
Tuning: Drop C (DAFCGC)
Intro
D|------------------------------------------------------|
A|------------------------------------------------------|
F|------------------------------------------------------|
C|------------------------------------------------------|
G|------------------------------------------------------|
C|-0000-0-00-00-000-0000-0-00-00-000-0000-0-00-000-0000-|
PM **** * ** ** *** **** * ** ** *** **** * ** *** **** x3

Part 2 
D|-----------------|
A|-----------------|
F|-----2-3-----3-2-|
C|-1-4-2-3-1-4-3-2-|
G|-1-4-0-1-1-4-1-0-|
C|-1-4-----1-4-----|

Main Riff/Chorus
D|------------------------------------|
A|------------------------------------|
F|------------------------------------|
C|-------------------------------3333-|
G|-3-6-3-5-1--3-6-3-5-1--3-6-3-5-1111-|
C|-3-6-3-5-1--3-6-3-5-1--3-6-3-5------|

Verses
D|--------------------------------------|
A|--------------------------------------|
F|--------------------------------------|
C|-----------------------5h7h8----------|
G|-66-3h5h6--88-5h7h8-88-------55-6-5-3-|
C|--------------------------------6-5-3-|
PM ** *****  ** ***** ** ***** ** 

Main Riff/Chorus
D|------------------------------------|
A|------------------------------------|
F|------------------------------------|
C|-------------------------------3333-|
G|-3-6-3-5-1--3-6-3-5-1--3-6-3-5-1111-|
C|-3-6-3-5-1--3-6-3-5-1--3-6-3-5------|

Guitar Solo
D|-------------------18-------18p17-------16p15--------------------------|
A|-7b-5b/13b-14b-16b----16-16-------15-15-------13-13-/12h14h15p12h14h15-|
F|-9b-7b/15b-16b-18b-----------------------------------------------------|
C|-----------------------------------------------------------------------|
G|-----------------------------------------------------------------------|
C|-----------------------------------------------------------------------|

D|-------------------------------------15h16h18p15h16h18-18p16p15h18p16p15-|
A|-12h14h15p12h14h15/15h16h18p15h16h18-------------------------------------|
F|-------------------------------------------------------------------------|
C|-------------------------------------------------------------------------|
G|-------------------------------------------------------------------------|
C|-------------------------------------------------------------------------|

D|-17b~-14h15h17p15p14----18~-19p17p16h19p17p16-------------------|
A|---------------------15-----------------------19p18p16h19p18p16-|
F|----------------------------------------------------------------|
C|----------------------------------------------------------------|
G|----------------------------------------------------------------|
C|----------------------------------------------------------------|

D|-------------------------------------------------------------------------|
A|-------------------------------------------------------------------------|
F|-19p18p16h19p18p16-------------------------------------------------------|
C|-------------------19p18p16h19p18p16-------------------------------------|
G|-------------------------------------19p18p16h19p18p16-------------------|
C|-------------------------------------------------------18p17p15h18p17p15-|

Part 2 
D|-----------------|
A|-----------------|
F|-----2-3-----3-2-|
C|-1-4-2-3-1-4-3-2-|
G|-1-4-0-1-1-4-1-0-|
C|-1-4-----1-4-----|

Main Riff/Chorus
D|------------------------------------|
A|------------------------------------|
F|------------------------------------|
C|-------------------------------3333-|
G|-3-6-3-5-1--3-6-3-5-1--3-6-3-5-1111-|
C|-3-6-3-5-1--3-6-3-5-1--3-6-3-5------|

Verses
D|--------------------------------------|
A|--------------------------------------|
F|--------------------------------------|
C|-----------------------5h7h8----------|
G|-66-3h5h6--88-5h7h8-88-------55-6-5-3-|
C|--------------------------------6-5-3-|
PM ** *****  ** ***** ** ***** ** 

Main Riff/Chorus
D|------------------------------------|
A|------------------------------------|
F|------------------------------------|
C|-------------------------------3333-|
G|-3-6-3-5-1--3-6-3-5-1--3-6-3-5-1111-|
C|-3-6-3-5-1--3-6-3-5-1--3-6-3-5------|
Tap to rate this tab
 
# A B C D E F G H I J K L M N O P Q R S T U V W X Y Z