Song name
# A B C D E F G H I J K L M N O P Q R S T U V W X Y Z

Washya - Handle On Love tab

-------------------------------------------------------------------------------
            Handle On Love - Washya
-------------------------------------------------------------------------------
Tuning: Standard (EBGDAE)
Intro
E|-2-2222-2-2222-2--4-4444-4-4444-4--6-6666-6-6666-6-6666-2-|
B|-2-2222-2-2222-2--4-4444-4-4444-4--6-6666-6-6666-6-6666-2-|
G|-3-3333-3-3333-3--5-5555-5-5555-5--7-7777-7-7777-7-7777-3-|
D|-4-4444-4-4444-4--6-6666-6-6666-6--8-8888-8-8888-8-8888-4-|
A|-4-4444-4-4444-4--6-6666-6-6666-6--8-8888-8-8888-8-8888-4-|
E|-2------2------2-/4------4------4-/6------6------6------2-|

Verses
E|-2--------------4-------------6-------------|
B|-2-2------------4-4-----------6-6-----------|
G|-3---3------3---5---5-----5---7---7-----7---|
D|-4------------4-6-----------6-8-----------8-|
A|-4-------4------6-------6-----8-------8-----|
E|-2-----2--------4-----4-------6-----6-------|

Chorus
E|---------------------------------------------------------------|
B|---------------------------------------------------------------|
G|---------------------------------------------------------------|
D|---------------------------------------------------------------|
A|-888888888\44444444/66666666/88888888\22222222/333/44/88888888-|
E|-666666666\22222222/44444444/66666666\00000000/111/22/66666666-|

Guitar Solo
E|------------------------------------------------------------12b/15b-|
B|-----------8p7---------------------9p8----------------------15b/17b-|
G|-/9b-9-9-9-----9-7-10b-10b-10b-10b-----10-8/12b-12b-12b-12b---------|
D|--------------------------------------------------------------------|
A|--------------------------------------------------------------------|
E|--------------------------------------------------------------------|
Tap to rate this tab
 
# A B C D E F G H I J K L M N O P Q R S T U V W X Y Z