Song name
# A B C D E F G H I J K L M N O P Q R S T U V W X Y Z

Washya - Memories Faded tab

-------------------------------------------------------------------------------
                         Memories Faded - Washya
-------------------------------------------------------------------------------
Tuning: Drop B (BF#BEG#C#)
Intro
B-|-----------------------------------------------------------|
F#|-----------------------------------------------------------|
B-|-------7---8-----------7---8-------9---10-----------9---10-|
E-|-----5---5-------5---5---5-------7---7--------7---7---7----|
G#|---5-----------5---7-----------7------------7---9----------|
C#|-5-----------5---------------7------------7----------------|

Verses
B-|-------------------------------------------------------------------|
F#|-------------------------------------------------------------------|
B-|-------7*---8*-----------7*---8*-------9*---10*-----------9*---10*-|
E-|-----5----5--------5---5----5--------7----7---------7---7----7-----|
G#|---5-------------5---7-------------7--------------7---9------------|
C#|-5-------------5-----------------7--------------7------------------|
PM  * * *    *    * * * * *    *    * * *    *     * * * * *    * 

Chorus
B-|----------------------------------------------------------------------|
F#|----------------------------------------------------------------------|
B-|----------------------------------------------------------------------|
E-|-7777-777/9999-999----------3333-33/555-55---------------------3---5*-|
G#|-5555-555/7777-777-3333-333-1111-11/333-33-5555555-1111111---3---3----|
C#|-5555-555/7777-777-3333-333----------------5555555-1111111-3----------|
PM                                                            * * * * 
Tap to rate this tab
 
# A B C D E F G H I J K L M N O P Q R S T U V W X Y Z